標籤: 暫無標籤

五聲音階

1 布魯斯音階 -布魯斯音階


  布魯斯音階也有好多種的   一般說的是基礎的最容易理解的,小調五聲音階的音樂色彩偏暗、憂鬱,是演奏布魯斯音樂的最好選擇,在搖滾樂、爵士樂中也經常被使用到   什麼是五聲音階?
什麼是五聲音階?
  [1] 所謂音階就是音的一種排列方式,排列準則,Do Rei Mi Fa Sou La Xi Do(1234567)就是一種音階,叫C大調音階所謂五聲音階就是每五個音符重複一次的排列標準.如果按照五聲音階排列,從C(do)開始彈,C就是第一個音,彈到的第6個音也會是C,每五個音重複一次,這就是五聲音階.大調音階用在大調和弦上,小調音階用在小調和弦上.(例子:a小調和弦就能和和a小調五聲音階吻合)把音階說為標準,因為同樣的指法在琴上任何地方都有同樣的排列效果.
什麼是布魯斯音階?
  什麼是布魯斯音階上面說得布魯斯音階比五聲音階多了一個音,加上這個額外的音五聲音階就成了布魯斯音階.布魯斯音樂里常會用到,會給彈奏的solo/曲子一種布魯斯的感覺.
7th 分解音階
  大調音階配大調和弦,小調音階配小調和弦,布魯斯音階配布魯斯和弦,如此推類,7th 分解音階就是給7th和弦用的音階.
如何運用這些音階?
  了解並且熟悉這些音階能給你即興和寫作的能力,比如說,你的朋友在彈Am和弦,你就可以用am音階solo(注 加上滑音,錘擊,拉擊推弦等技巧會讓solo更有色彩)
如何練習這些音階?
  用節拍器一拍一個音的練,(速度不要太快,60左右就可)熟悉/記住各種指形之後就可以自己玩了.其中一種玩法就是自己在電腦里錄下一段和弦,播放,然後跟著用相對的音階即興.把它也錄下來,自己聽聽,然後想想怎麼改進,這種solo錄音也會成為目前水平的記錄.總的來說進步的方法就是多練,多玩,多聽.   布魯斯音階的五個指型模塊  布魯斯練習曲

2 布魯斯音階 -布魯斯音階的五個指型模塊

  [2]E||----------------------------------|  全部四種布魯斯音階
B||----------------------------------|   

G||--------------------------------5-|   

D||----------------5-----5-7---5-7---|   

A||------5-7---5-7---5-7-----7-------|   

E||--5-8-----8-----------------------|   

|--------------------------------5-|   

|----------------5-----5-8---5-8---|   

|------5-7---5-7---5-7-----7-------|   

|--5-7-----7-----------------------|   

|----------------------------------|   

|----------------------------------|   

|------5-8~------------||   

|--5-8-----------------||   

|----------------------||   

|----------------------||   

|----------------------||   |----------------------||   

E||--8-5-----5-----------------------|   

B||------8-5---8-5---8-5-----5-------|   

G||----------------7-----7-5---7-5---|   

D||--------------------------------7-|   

A||----------------------------------|   

E||----------------------------------|   |----------------------------------|   |----------------------------------|   |--7-5-----5-----------------------|   |------7-5---7-5---7-5-----5-------|   |----------------7-----7-5---7-5---|   |--------------------------------8-|   |----------------------||   |----------------------||   |----------------------||   |----------------------||   |--7-5-----------------||   |------8-5~------------||

 

相關評論

同義詞:暫無同義詞